0
SECTION
2
HEADER
9
$INSUNITS
70
4
9
$ACADVER
1
AC1014
9
$HANDSEED
5
FFFF
0
ENDSEC
0
SECTION
2
TABLES
0
TABLE
2
VPORT
5
8
100
AcDbSymbolTable
0
ENDTAB
0
TABLE
2
LTYPE
5
5
100
AcDbSymbolTable
0
LTYPE
5
14
100
AcDbSymbolTableRecord
100
AcDbLinetypeTableRecord
2
BYBLOCK
70
0
0
LTYPE
5
15
100
AcDbSymbolTableRecord
100
AcDbLinetypeTableRecord
2
BYLAYER
70
0
0
ENDTAB
0
TABLE
2
LAYER
5
2
100
AcDbSymbolTable
70
2
0
LAYER
5
50
100
AcDbSymbolTableRecord
100
AcDbLayerTableRecord
2
0
70
0
6
CONTINUOUS
0
ENDTAB
0
TABLE
2
STYLE
5
3
100
AcDbSymbolTable
70
1
0
STYLE
5
11
100
AcDbSymbolTableRecord
100
AcDbTextStyleTableRecord
2
STANDARD
70
0
0
ENDTAB
0
TABLE
2
VIEW
5
6
100
AcDbSymbolTable
70
0
0
ENDTAB
0
TABLE
2
UCS
5
7
100
AcDbSymbolTable
70
0
0
ENDTAB
0
TABLE
2
APPID
5
9
100
AcDbSymbolTable
70
2
0
APPID
5
12
100
AcDbSymbolTableRecord
100
AcDbRegAppTableRecord
2
ACAD
70
0
0
ENDTAB
0
TABLE
2
DIMSTYLE
5
A
100
AcDbSymbolTable
70
1
0
ENDTAB
0
TABLE
2
BLOCK_RECORD
5
1
100
AcDbSymbolTable
70
1
0
BLOCK_RECORD
5
1F
100
AcDbSymbolTableRecord
100
AcDbBlockTableRecord
2
*MODEL_SPACE
0
BLOCK_RECORD
5
1B
100
AcDbSymbolTableRecord
100
AcDbBlockTableRecord
2
*PAPER_SPACE
0
ENDTAB
0
ENDSEC
0
SECTION
2
BLOCKS
0
BLOCK
5
20
100
AcDbEntity
100
AcDbBlockBegin
2
*MODEL_SPACE
0
ENDBLK
5
21
100
AcDbEntity
100
AcDbBlockEnd
0
BLOCK
5
1C
100
AcDbEntity
100
AcDbBlockBegin
2
*PAPER_SPACE
0
ENDBLK
5
1D
100
AcDbEntity
100
AcDbBlockEnd
0
ENDSEC
0
SECTION
2
ENTITIES
0
ARC
5
100
100
AcDbEntity
8
0
100
AcDbCircle
10
0
20
0
30
0
40
10
210
0
220
-0
230
1
100
AcDbArc
50
14.477512185929916
51
180
0
LINE
5
101
100
AcDbEntity
8
0
100
AcDbLine
10
0
20
0
30
0
11
10
21
0
31
0
0
LINE
5
102
100
AcDbEntity
8
0
100
AcDbLine
10
0
20
0
30
0
11
-10
21
1.2246467991473533e-15
31
0
0
LINE
5
103
100
AcDbEntity
8
0
100
AcDbLine
10
9.6824583655185421
20
2.5
30
0
11
34.682458365518542
21
2.5
31
0
0
LINE
5
104
100
AcDbEntity
8
0
100
AcDbLine
10
34.682458365518542
20
0
30
0
11
10
21
0
31
0
0
LINE
5
105
100
AcDbEntity
8
0
100
AcDbLine
10
10
20
0
30
0
11
-10
21
1.2246467991473533e-15
31
0
0
LWPOLYLINE
5
106
100
AcDbEntity
8
0
100
AcDbPolyline
90
5
70
1
43
0.0
10
59.682458365518542
20
2.499999999999996
42
-0.8810176860692418
10
79.364916731037084
20
1.1102230246251565e-15
10
59.364916731037084
20
0
10
34.682458365518542
20
0
10
34.682458365518542
20
2.5
0
LINE
5
107
100
AcDbEntity
8
0
100
AcDbLine
10
-66.284271447969601
20
0
30
0
11
-63.284271813391761
21
0
31
0
0
ARC
5
108
100
AcDbEntity
8
0
100
AcDbCircle
10
-78.284271626783536
20
0
30
0
40
12.000000178813934
210
0
220
-0
230
1
100
AcDbArc
50
0
51
135.15224342476648
0
LINE
5
109
100
AcDbEntity
8
0
100
AcDbLine
10
-86.792069803514963
20
8.4627049148331341
30
0
11
-88.919018802864628
21
10.578381627888728
31
0
0
ARC
5
110
100
AcDbEntity
8
0
100
AcDbCircle
10
-78.284271626783536
20
0
30
0
40
15.000000178813938
210
0
220
-0
230
1
100
AcDbArc
50
19.47122039300703
51
135.15224064544634
0
LINE
5
111
100
AcDbEntity
8
0
100
AcDbLine
10
-64.142135813391761
20
5
30
0
11
-39.142135813391768
21
5
31
0
0
LINE
5
112
100
AcDbEntity
8
0
100
AcDbLine
10
-39.142135813391768
20
0
30
0
11
-63.284271813391761
21
0
31
0
0
LINE
5
113
100
AcDbEntity
8
0
100
AcDbLine
10
-14.14213581339177
20
5
30
0
11
-39.142135813391768
21
5
31
0
0
ARC
5
114
100
AcDbEntity
8
0
100
AcDbCircle
10
0
20
0
30
0
40
15.000000178813956
210
0
220
-0
230
1
100
AcDbArc
50
44.847759354553645
51
160.52877960699297
0
LINE
5
115
100
AcDbEntity
8
0
100
AcDbLine
10
8.5077981767314412
20
8.4627049148331341
30
0
11
10.634747176081106
21
10.578381627888728
31
0
0
ARC
5
116
100
AcDbEntity
8
0
100
AcDbCircle
10
0
20
0
30
0
40
12.000000178813986
210
0
220
-0
230
1
100
AcDbArc
50
44.847756575233497
51
180
0
LINE
5
117
100
AcDbEntity
8
0
100
AcDbLine
10
-39.142135813391768
20
0
30
0
11
-14.999999813391769
21
0
31
0
0
LINE
5
118
100
AcDbEntity
8
0
100
AcDbLine
10
-12.000000178813934
20
0
30
0
11
-14.999999813391769
21
0
31
0
0
LINE
5
119
100
AcDbEntity
8
0
100
AcDbLine
10
60.857118554305636
20
8.4627049148331341
30
0
11
58.730169554955971
21
10.578381627888728
31
0
0
ARC
5
120
100
AcDbEntity
8
0
100
AcDbCircle
10
69.364916731037084
20
0
30
0
40
12.000000178813934
210
0
220
-0
230
1
100
AcDbArc
50
0
51
135.15224342476654
0
ARC
5
121
100
AcDbEntity
8
0
100
AcDbCircle
10
69.364916731037084
20
0
30
0
40
15.000000178813943
210
0
220
-0
230
1
100
AcDbArc
50
19.47122039300703
51
135.1522406454464
0
LINE
5
122
100
AcDbEntity
8
0
100
AcDbLine
10
81.364916909851019
20
0
30
0
11
84.364916544428866
21
0
31
0
0
LINE
5
123
100
AcDbEntity
8
0
100
AcDbLine
10
108.50705254442886
20
0
30
0
11
84.364916544428866
21
0
31
0
0
LINE
5
124
100
AcDbEntity
8
0
100
AcDbLine
10
83.507052544428859
20
5
30
0
11
108.50705254442886
21
5
31
0
0
LINE
5
125
100
AcDbEntity
8
0
100
AcDbLine
10
108.50705254442886
20
0
30
0
11
132.64918854442885
21
0
31
0
0
LINE
5
126
100
AcDbEntity
8
0
100
AcDbLine
10
135.64918817900667
20
0
30
0
11
132.64918854442885
21
0
31
0
0
LINE
5
127
100
AcDbEntity
8
0
100
AcDbLine
10
133.50705254442886
20
5
30
0
11
108.50705254442886
21
5
31
0
0
ARC
5
128
100
AcDbEntity
8
0
100
AcDbCircle
10
185.64918817900667
20
0
30
0
40
52.38131640704259
210
0
220
-0
230
1
100
AcDbArc
50
24.522555939919354
51
174.52255593991941
0
ARC
5
129
100
AcDbEntity
8
0
100
AcDbCircle
10
185.64918817900667
20
0
30
0
40
47.381316407042597
210
0
220
-0
230
1
100
AcDbArc
50
24.522555939919339
51
174.52255593991941
0
LINE
5
130
100
AcDbEntity
8
0
100
AcDbLine
10
233.30560224612492
20
21.740940798366694
30
0
11
228.75661251696351
21
19.665683598889011
31
0
0
LINE
5
131
100
AcDbEntity
8
0
100
AcDbLine
10
138.48422181117601
20
4.5227305895535324
30
0
11
138.48422181117601
21
0
31
0
0
LINE
5
132
100
AcDbEntity
8
0
100
AcDbLine
10
135.64918817900667
20
0
30
0
11
138.48422181117601
21
0
31
0
0
LWPOLYLINE
5
133
100
AcDbEntity
8
0
100
AcDbPolyline
90
2
70
1
43
0.0
10
140.00000000000003
20
-6.0307321604513082e-17
42
-0.99999999999999989
10
184.00000000000003
20
6.0307321604513279e-17
0
LWPOLYLINE
5
134
100
AcDbEntity
8
0
100
AcDbPolyline
90
2
70
1
43
0.0
10
188.00000000000006
20
-6.0307321604513082e-17
42
-0.99999999999999989
10
232.00000000000003
20
6.0307321604513279e-17
0
ENDSEC
0
SECTION
2
OBJECTS
0
DICTIONARY
5
C
100
AcDbDictionary
3
ACAD_GROUP
350
D
3
ACAD_MLINESTYLE
350
17
0
DICTIONARY
5
D
100
AcDbDictionary
0
DICTIONARY
5
1A
330
C
100
AcDbDictionary
0
DICTIONARY
5
17
100
AcDbDictionary
0
ENDSEC
0
EOF
